Lick per improvvisazioni e assoli

Vuoi acquistare i prodotti recensiti su strumenti musicali info?


Entra nel negozio

In questo articolo voglio voglio proporvi una serie di lick utili per le vostre improvvisazioni e assoli, inoltre potete utilizzare questi lick come esercizi utili per migliorare il gioco delle vostre mani sulla chitarra. I lick vengono eseguiti su una sola corda. Dopo aver preso dimestichezza potete eseguire i lick su tutte e 6 le corde in modo da abituarvi al diverso spessore delle corde. Grazie agli esercizi che sto per mostrarvi potete rinforzare le dita, inoltre si otterranno dei benefici anche in termini di velocità. Consiglio almeno all’inizio di eseguire i lick con la pennata alternata. Dopo un buon approccio con questi esercizi potete eseguire tutte le variazioni che volete (variazioni di pennata, variazioni ritmiche, ecc.).

Esercizio 1

E-9-7-9-10-9-7-9-8-9-7-9-7-9-7-9-7-9-7-9-10-7-9-7-9-7-9-10-9-7-9--
B-----------------------------------------------------------------
G-----------------------------------------------------------------
D-----------------------------------------------------------------
A-----------------------------------------------------------------
E-----------------------------------------------------------------

Esercizio 2

E-0-4-2-0-2-0-3-0-3-2-3-2-1-0-3-1-0-4-1-4-5-4-1-0-3-1-0-2-1-3-2-0-3-2-0-4-1-0-1-4-0-
B-----------------------------------------------------------------------------------
G-----------------------------------------------------------------------------------
D-----------------------------------------------------------------------------------
A-----------------------------------------------------------------------------------
E-----------------------------------------------------------------------------------
E-2-3-0-2-3-1-2-0-1-3-0-1-4-5--
B------------------------------
G------------------------------
D------------------------------
A------------------------------
E------------------------------

Esercizio 3

E-----------------------------------------------------------------------------------
B-----------------------------------------------------------------------------------
G-----------------------------------------------------------------------------------
D-----------------------------------------------------------------------------------
A-----------------------------------------------------------------------------------
E-15-12-10-14-10-14-10-8-12-8-12-8-7-10-7-10-7-5-8-5-8-7-5-8-7-4-5-7-5-2-4-5-4-3-2-3
E------------------------------------------------
B------------------------------------------------
G------------------------------------------------
D------------------------------------------------
A------------------------------------------------
E-5-3-7-5-4-5-9-7-5-7-5-10-8-7-8-7-12-10-8-10-8--

Esercizio 4

E-------------------------------------------------
B-------------------------------------------------
G-------------------------------------------------
D-------------------------------------------------
A-------------------------------------------------
E-12-14-12-14-10-9-7-9-7-8-7-5-7-5-8-7-5-7-5-7-5--

Esercizio 5

E-20-19-17-16-15-19-15-16-17-19-15-19-17-16-19-16-17-15-14-13-17-13-14-15-17-13-17--
B-----------------------------------------------------------------------------------
G-----------------------------------------------------------------------------------
D-----------------------------------------------------------------------------------
A-----------------------------------------------------------------------------------
E-----------------------------------------------------------------------------------
E-15-14-17-14-15-14-12-15-12-14-15-12-15-14-12-16-12-14-13-12-10-13-10-12-13-10-13--
B-----------------------------------------------------------------------------------
G-----------------------------------------------------------------------------------
D-----------------------------------------------------------------------------------
A-----------------------------------------------------------------------------------
E-----------------------------------------------------------------------------------
E-12-10-14-10-12-10-9-8-12-8-9-10-12-8-12-10-9-12-9-10-8-9-7-10-7-10-7-10-7-9-8-10-7
B-----------------------------------------------------------------------------------
G-----------------------------------------------------------------------------------
D-----------------------------------------------------------------------------------
A-----------------------------------------------------------------------------------
E-----------------------------------------------------------------------------------
E-10-8-9-7-11-7-9-8-7-5-8-5-7-8-5-8-7-5-9-5-7--
B----------------------------------------------
G----------------------------------------------
D----------------------------------------------
A----------------------------------------------
E----------------------------------------------

Esercizio 6

E-----------------------------------------------------------------------------------
B-----------------------------------------------------------------------------------
G-----------------------------------------------------------------------------------
D-----------------------------------------------------------------------------------
A-----------------------------------------------------------------------------------
E-3-2-5-3-7-5-9-7-10-9-12-10-14-12-10-14-12-10-14-12-11-14-12-11-14-12-11-14-12-11--
E--------------------------------------------------
B--------------------------------------------------
G--------------------------------------------------
D--------------------------------------------------
A--------------------------------------------------
E-14-12-16-14-16-15-14-17-15-14-17-15-14-17-15-19--

Esercizio 7

E-----------------------------------------------------------------------------------
B-----------------------------------------------------------------------------------
G-----------------------------------------------------------------------------------
D-----------------------------------------------------------------------------------
A-----------------------------------------------------------------------------------
E-14-16-12-16-14-12-14-13-12-14-9-11-16-15-16-12-13-14-15-16-17-14-15-16-17-12-13-14
E-----------------------------------------------------------------------------------
B-----------------------------------------------------------------------------------
G-----------------------------------------------------------------------------------
D-----------------------------------------------------------------------------------
A-----------------------------------------------------------------------------------
E-15-12-13-14-15-14-13-12-15-12-16-19-16-12-15-12-13-14-12-14-13-12-15-12-15-12-13--
E-----------------------------------------------------------------------------------
B-----------------------------------------------------------------------------------
G-----------------------------------------------------------------------------------
D-----------------------------------------------------------------------------------
A-----------------------------------------------------------------------------------
E-14-12-14-10-12-10-12-10-12-10-12-9-10-9-11-9-10-9-11-7-9-7-8-7-9-7-8-6-7-6-7-6-7-6
E-----------------------------
B-----------------------------
G-----------------------------
D-----------------------------
A-----------------------------
E-7-5-8-6-9-7-10-8-7-10-7-11--

Lascia un commento

Il tuo indirizzo email non sarà pubblicato. I campi obbligatori sono contrassegnati *